Happy Busman

Frank And Walters Guitar Tabs/Chords
plug
Registered User
Registered User
Posts: 1
Joined: 10 Jan 2012 09:50

Happy Busman

Post by plug » 10 Jan 2012 09:52

please can somebody put up the guitar chords/tab for this song! I beg you!
Plug



Sig
Senior Member
Senior Member
Posts: 340
Joined: 20 Dec 2005 09:41

Re: Happy Busman

Post by Sig » 13 Jan 2012 14:01

Code: Select all

Happy Busman - The Frank & Walters

Standard tuning

Intro

------------------------------------------------------
--10-12-10--------10--------10--10-9-10-----10--------
------------11-11----9----9-------------9-9----9------
-----------------------12-----------------------------
------------------------------------------------------
------------------------------------------------------

------------------------------------------------------
--10-12-10--------10--------10--10-9-10--------9-11---
------------11-11----9----9-----------------9-9-10----
-----------------------12-----------------------------
------------------------------------------------------
------------------------------------------------------

     D              A            G     (A)
Andy James drives a bus for the lonely

            D       A       G   (A)
He cheers up everyone everyday

       D               A            G    (A)
Andy James loves them all like his family

     D            A           G   
And I think he's sent here by God


        D           A           G    (A)
Why not jump on the 5 for your journey

        D              A      G    (A)
It's a bus ride you'll never regret

       D              A       G    (A)
Andy James will make everyone happy

        D            A      G
And his smile you'll never forget



    Em                       Bm      
He's got pink carpet on the sliding door

    G                      D          
And super bubbles on the marble floor

      Em                      Bm
Don't need no money cause the entry's free

   G                    D
And Andy James is gonna make the

               A
Whole world smile with love

------------------------------------------------------
--10-12-10--------10--------10--10-9-10-----10--------
------------11-11----9----9-------------9-9----9------
-----------------------12-----------------------------
------------------------------------------------------
------------------------------------------------------

------------------------------------------------------
--10-12-10--------10--------10--10-9-10--------9-11---
------------11-11----9----9-------------9-9-10--------
-----------------------12-----------------------------
------------------------------------------------------
------------------------------------------------------

     D              A            G     (A)
Andy James drives a bus for the lonely

          D       A       G   (A)
He cheers up everyone everyday

       D               A            G    (A)
Andy James loves them all like his family

     D            A           G   
And I think he's sent here by God


    Em                       Bm      
He's got pink carpet on the sliding door

    G                      D          
And super bubbles on the marble floor

      Em                      Bm
Don't need no money cause the entry's free

   G                    D
And Andy James is gonna make the

               A
Whole world smile.. 


      Bm    G     D       Bm
..So smile, smile all the time

G      D       Bm
Smile all your life

G          A
Don't ever die


   Em                       Bm      
He's got pink carpet on the sliding door

    G                      D          
And super bubbles on the marble floor

      Em                      Bm
Don't need no money cause the entry's free

   G                    D
And Andy James is gonna make the

               A       Bm
Whole world smile with love
Always remember, there is nothing worth sharing,
Like the love that let us share our name.

Sig
Senior Member
Senior Member
Posts: 340
Joined: 20 Dec 2005 09:41

Re: Happy Busman

Post by Sig » 14 Jan 2012 22:06

Format is a little off when uploaded, will be on ultimate-guitar.com shortly

cheers, Sig
Always remember, there is nothing worth sharing,
Like the love that let us share our name.