Song For a Future Love

Frank And Walters Guitar Tabs/Chords
Sig
Senior Member
Senior Member
Posts: 340
Joined: 20 Dec 2005 09:41

Song For a Future Love

Post by Sig » 08 Dec 2010 23:43

Song For a Future Love - The Frank & Walters

www.frankandwalters.net

Code: Select all

(CAPO 7th fret, all chords, tab relevant to CAPO position)

INTRO
(Guitar 1)
e------------2-3-0-2---0------------2-3-----0-------------
B----------3---------3---2--------3-----3-2---3-----------
G--------2----------------------2------------------------- x 2
D------0----------------------0---------------------------
A----0----------------------0-----------------------------
E---------------------------------------------------------

(Guitar 2)
e-10----------------12-9-10------------------------------
B---------------------------------------------------------
G---------------------------------------------------------
D---------------------------------------------------------
A---------------------------------------------------------
E---------------------------------------------------------

VERSE 1

e----------------2---3---0---2-----0-----------------------2--3--------0----
B------------3------------------3-----2----------------3--------3--2-----3--
G--------2----------------------------------------2------------------------- 
D-----0---------------------------------------0-----------------------------
A-0---------------------------------------0---------------------------------
E---------------------------------------------------------------------------
(D)         (G)        (D)     (A)         (D)            (G)    (A)    (D) 
It's always quiet at Christmas time here, 'Cause its the season of good will


e----------------2---3---0---2-----0-----------------------2--3--------0----
B------------3------------------3-----2----------------3--------3--2-----3--
G--------2----------------------------------------2------------------------- 
D-----0---------------------------------------0-----------------------------
A-0---------------------------------------0---------------------------------
E---------------------------------------------------------------------------
(D)   (G)   (D)      (A)                 (D)         (G)      (A)      (D)
People are a bit more friendly,           And we dont mind the winter's chill


BRIDGE
G                          D
It's been a long and lonely winter
           G          D
Without you here by my side
             G              D 
You know that i really miss you
A
Tonight......(lead fill)

fill
e-------------
B-2-3-5---7-5-
G-------2-----
D------------- x 2
A-------------
E-------------


CHORUS
                G           A          
'Cause when the memories of what we done
D                   G
That don't mean anything to anyone
G                              A
Will come alive again when we both learn
             D                    G
That all the lovers broken hearts return


VERSE 2

e----------------2---3---0---2-----0-----------------------2--3--------0----
B------------3------------------3-----2----------------3--------3--2-----3--
G--------2----------------------------------------2------------------------- 
D-----0---------------------------------------0-----------------------------
A-0---------------------------------------0---------------------------------
E---------------------------------------------------------------------------
(D)    (G)   (D)   (A)                   (D)       (G)  (A)      (D)
I saw a robin at my doorstep,             He sang a most familiar tune


e----------------2---3---0---2-----0-----------------------2--3--------0----
B------------3------------------3-----2----------------3--------3--2-----3--
G--------2----------------------------------------2------------------------- 
D-----0---------------------------------------0-----------------------------
A-0---------------------------------------0---------------------------------
E---------------------------------------------------------------------------
(D)        (G)      (D)      A)          (D)      (G)        (A)       (D)
All i could think of was Hank Williams,   And everything that he'd been through


BRIDGE
G                          D
It's been a long and lonely winter
           G          D
Without you here by my side
             G              D 
You know that i really miss you
A
Tonight......(lead fill)

fill
e-------------
B-2-3-5---7-5-
G-------2-----
D------------- x 2
A-------------
E-------------



CHORUS
                G           A          
'Cause when the memories of what we done
D                   G
That don't mean anything to anyone
G                              A
Will come alive again when we both learn
             D                    G
That all the lovers broken hearts return

BRIDGE
(no music)
It's been a long and lonely winter

Without you here by my side

You know that I really miss you

Tonight......(lead fill)

fill
e-------------
B-2-3-5---7-5-
G-------2-----
D------------- x 2
A-------------
E-------------

G  A  D  G         
ohhhhhhhhhhhh
G  A  D  G
ohhhhhhhhhhh

CHORUS
                G           A          
'Cause when the memories of what we done
D                   G
That don't mean anything to anyone
G                              A
Will come alive again when we both learn
             D                    G
That all the lovers broken hearts return


e------------------------------------------------------------------------------------
B--8-8-8-7------------8-8-8-7------------8-8-8-7-----7--------8-8-8-7-----7----------
G----------9-7-6-7-9----------9-7-6-7-9----------9-7---7/9-9----------9-7---7/9-9----
D------------------------------------------------------------------------------------
A------------------------------------------------------------------------------------
E------------------------------------------------------------------------------------


e------------------------------------------------------------------------------------
B--8-8-8-7------------8-8-8-7------------8-8-8-7-----7--------8-8-8-7-----7----------
G----------9-7-6-7-9----------9-7-6-7-9----------9-7---7/9-9----------9-7---7/9-9----
D------------------------------------------------------------------------------------
A------------------------------------------------------------------------------------
E------------------------------------------------------------------------------------


e------------------------------------------------------------------------------------
B--8-8-8-7------------8-8-8-7------------8-8-8-7-----7--------8-8-8-7-----7----------
G----------9-7-6-7-9----------9-7-6-7-9----------9-7---7/9-9----------9-7---7/9-9----
D------------------------------------------------------------------------------------
A------------------------------------------------------------------------------------
E------------------------------------------------------------------------------------


OUTRO

D    G    A    D
Oh oh oh oh oh oh oh oh
(formatting of the tab is a little out when uploaded, up on ultimate-guitar.com soon)
Sig Doherty
www.indiedelights.com


Always remember, there is nothing worth sharing,
Like the love that let us share our name.

User avatar
humphrey
Admin
Admin
Posts: 1264
Joined: 25 Sep 2005 21:36

Re: Song For a Future Love

Post by humphrey » 09 Dec 2010 15:38

just gave this a rattle,not bad at all,fingers are in bits tho cos of the capo up so high!