Time

Frank And Walters Guitar Tabs/Chords
cliffcake
Senior Member
Senior Member
Posts: 368
Joined: 17 Feb 2007 18:03

Time

Post by cliffcake » 18 Dec 2010 13:21

Code: Select all

Time - The Frank And Walters

[Key=Em]
C           Bm                Em              Am   C
Why can't I keep those lovely feelings of the past
             Em
Why can't I keep those feelings



[Key=E]
E                       A
Time you make me travel always
                       F#m
And wont give me back those days
                    E
That I had loved before
                      B
I'm knockin' on your door
                      A
I'm pleading on the shore



Chorus:

A
Days I'm weary
             E                B
And there's some days I feel strong
A                        
There's days I'm feeling maybe
E            B7   
Do I still belong



Bridge [Key=Em]
[e and f# notes ringing throughout]

D7          
You stole all my childhood
Bm
Then took my boyhood
D7
Now take my manhood



C           Bm                 Em              Am   C
Why can't I keep those lovely feelings of the past
             Em
Why can't I keep those feelings



[Key=E]
E                              A
Time, don't take me while I'm sleeping
                     F#m
Don't carry me out weeping
                      E
'cause I'm afraid to go
                      B
I'm knocking on your door
                     A
To leave me on the shore



Chorus, Bridge



[key=Em]    
C            Bm                Em              Am   C
Why can't I keep those lovely feelings of the past
              Bm                Em            Am
Why can't I keep those lovely feelings in a chest



C                      Bm
The time has come when I won't weep
      Em                   Am
I've wasted time and I've wasted sleep
     C                Bm
The time will go not mine to keep
     Em                   Am
But I'll hold on 'till I reach my peak



     C          Bm        Em   Am
But where's my life gone now
C          Bm        Em   Am
Where's my time gone now



Outro:

e ------------------------------------------------------
B -------5---------3---------------5---------3-----5----
G -5-4-5---5-4-4-5---5-4-----5-4-5---5-4-4-5---5-4------
D -----------------------5------------------------------
A ------------------------------------------------------
E ------------------------------------------------------


e -2-3-2-0-2-3-2-0-2-0-2-------2-3-2-0-2-3-2-0-2-------
B ---------------------  3-3-3-------------------1-1-1-
G -----------------------------------------------------   (x2)
D -----------------------------------------------------
A -----------------------------------------------------
E -----------------------------------------------------


e -------------------------------------------0-0-0-0-0-
B -1-1-1-1-1-1-1-1-0-0-0-0-0-1-3-3-3-3-3-3-3-----------
G -----------------------------------------------------  (x2)
D -----------------------------------------------------
A -----------------------------------------------------
E -----------------------------------------------------


e -3--------2--------0--------8--------7--------5------
B -----------------------------------------------------
G -----------------------------------------------------
D -----------------------------------------------------
A -----------------------------------------------------
E -----------------------------------------------------

                     Why can't I keep those lovely 

e -3------2------0--------8--------7--------5----------
B -----------------------------------------------------
G -----------------------------------------------------
D -----------------------------------------------------
A -----------------------------------------------------
E -----------------------------------------------------

   feelings  of  the      past


e -8------7------5------3---2---3--------12------------
B -----------------------------------------------------
G -----------------------------------------------------
D -----------------------------------------------------
A -----------------------------------------------------
E -----------------------------------------------------

   Why can't I keep those feelings       Time